ISO-10303-21;
HEADER;
FILE_DESCRIPTION((''),'2;1');
FILE_NAME('4027041515_ASM','2023-08-10T12:49:42',('a00528554'),(''),
'CREO PARAMETRIC BY PTC INC, 2022414','CREO PARAMETRIC BY PTC INC, 2022414','');
FILE_SCHEMA(('CONFIG_CONTROL_DESIGN','GEOMETRIC_VALIDATION_PROPERTIES_MIM'));
ENDSEC;
DATA;
#46=CARTESIAN_POINT('',(0.E0,0.E0,0.E0));
#47=DIRECTION('',(0.E0,-1.E0,0.E0));
#48=DIRECTION('',(0.E0,0.E0,1.E0));
#49=AXIS2_PLACEMENT_3D('',#46,#47,#48);
#51=CARTESIAN_POINT('',(0.E0,0.E0,1.4E1));
#52=DIRECTION('',(1.E0,0.E0,0.E0));
#53=DIRECTION('',(0.E0,0.E0,-1.E0));
#54=AXIS2_PLACEMENT_3D('',#51,#52,#53);
#56=CARTESIAN_POINT('',(0.E0,0.E0,0.E0));
#57=DIRECTION('',(0.E0,1.E0,0.E0));
#58=DIRECTION('',(0.E0,0.E0,1.E0));
#59=AXIS2_PLACEMENT_3D('',#56,#57,#58);
#61=CARTESIAN_POINT('',(0.E0,0.E0,-1.4E1));
#62=DIRECTION('',(-1.E0,0.E0,0.E0));
#63=DIRECTION('',(0.E0,0.E0,1.E0));
#64=AXIS2_PLACEMENT_3D('',#61,#62,#63);
#66=CARTESIAN_POINT('',(0.E0,0.E0,1.4E1));
#67=DIRECTION('',(1.E0,0.E0,0.E0));
#68=DIRECTION('',(0.E0,0.E0,1.E0));
#69=AXIS2_PLACEMENT_3D('',#66,#67,#68);
#71=CARTESIAN_POINT('',(0.E0,0.E0,0.E0));
#72=DIRECTION('',(0.E0,1.E0,0.E0));
#73=DIRECTION('',(0.E0,0.E0,1.E0));
#74=AXIS2_PLACEMENT_3D('',#71,#72,#73);
#76=CARTESIAN_POINT('',(0.E0,0.E0,-1.4E1));
#77=DIRECTION('',(-1.E0,0.E0,0.E0));
#78=DIRECTION('',(0.E0,0.E0,-1.E0));
#79=AXIS2_PLACEMENT_3D('',#76,#77,#78);
#81=CARTESIAN_POINT('',(0.E0,0.E0,0.E0));
#82=DIRECTION('',(0.E0,-1.E0,0.E0));
#83=DIRECTION('',(0.E0,0.E0,1.E0));
#84=AXIS2_PLACEMENT_3D('',#81,#82,#83);
#86=CARTESIAN_POINT('',(0.E0,0.E0,1.2E1));
#87=CARTESIAN_POINT('',(0.E0,0.E0,1.6E1));
#88=VERTEX_POINT('',#86);
#89=VERTEX_POINT('',#87);
#90=CARTESIAN_POINT('',(0.E0,0.E0,-1.2E1));
#91=CARTESIAN_POINT('',(0.E0,0.E0,-1.6E1));
#92=VERTEX_POINT('',#90);
#93=VERTEX_POINT('',#91);
#94=CARTESIAN_POINT('',(0.E0,0.E0,0.E0));
#95=DIRECTION('',(0.E0,-1.E0,0.E0));
#96=DIRECTION('',(0.E0,0.E0,1.E0));
#97=AXIS2_PLACEMENT_3D('',#94,#95,#96);
#98=TOROIDAL_SURFACE('',#97,1.4E1,2.E0);
#100=ORIENTED_EDGE('',*,*,#99,.T.);
#102=ORIENTED_EDGE('',*,*,#101,.T.);
#104=ORIENTED_EDGE('',*,*,#103,.F.);
#106=ORIENTED_EDGE('',*,*,#105,.F.);
#107=EDGE_LOOP('',(#100,#102,#104,#106));
#108=FACE_OUTER_BOUND('',#107,.F.);
#109=ADVANCED_FACE('',(#108),#98,.T.);
#110=CARTESIAN_POINT('',(0.E0,0.E0,0.E0));
#111=DIRECTION('',(0.E0,-1.E0,0.E0));
#112=DIRECTION('',(0.E0,0.E0,1.E0));
#113=AXIS2_PLACEMENT_3D('',#110,#111,#112);
#114=TOROIDAL_SURFACE('',#113,1.4E1,2.E0);
#115=ORIENTED_EDGE('',*,*,#99,.F.);
#117=ORIENTED_EDGE('',*,*,#116,.T.);
#118=ORIENTED_EDGE('',*,*,#103,.T.);
#120=ORIENTED_EDGE('',*,*,#119,.F.);
#121=EDGE_LOOP('',(#115,#117,#118,#120));
#122=FACE_OUTER_BOUND('',#121,.F.);
#123=ADVANCED_FACE('',(#122),#114,.T.);
#124=CARTESIAN_POINT('',(0.E0,0.E0,0.E0));
#125=DIRECTION('',(0.E0,-1.E0,0.E0));
#126=DIRECTION('',(0.E0,0.E0,1.E0));
#127=AXIS2_PLACEMENT_3D('',#124,#125,#126);
#128=TOROIDAL_SURFACE('',#127,1.4E1,2.E0);
#130=ORIENTED_EDGE('',*,*,#129,.F.);
#131=ORIENTED_EDGE('',*,*,#119,.T.);
#133=ORIENTED_EDGE('',*,*,#132,.T.);
#134=ORIENTED_EDGE('',*,*,#116,.F.);
#135=EDGE_LOOP('',(#130,#131,#133,#134));
#136=FACE_OUTER_BOUND('',#135,.F.);
#137=ADVANCED_FACE('',(#136),#128,.T.);
#138=CARTESIAN_POINT('',(0.E0,0.E0,0.E0));
#139=DIRECTION('',(0.E0,-1.E0,0.E0));
#140=DIRECTION('',(0.E0,0.E0,1.E0));
#141=AXIS2_PLACEMENT_3D('',#138,#139,#140);
#142=TOROIDAL_SURFACE('',#141,1.4E1,2.E0);
#143=ORIENTED_EDGE('',*,*,#129,.T.);
#144=ORIENTED_EDGE('',*,*,#105,.T.);
#145=ORIENTED_EDGE('',*,*,#132,.F.);
#146=ORIENTED_EDGE('',*,*,#101,.F.);
#147=EDGE_LOOP('',(#143,#144,#145,#146));
#148=FACE_OUTER_BOUND('',#147,.F.);
#149=ADVANCED_FACE('',(#148),#142,.T.);
#153=DIMENSIONAL_EXPONENTS(0.E0,0.E0,0.E0,0.E0,0.E0,0.E0,0.E0);
#155=PLANE_ANGLE_MEASURE_WITH_UNIT(PLANE_ANGLE_MEASURE(1.745329251994E-2),#154);
#156=(CONVERSION_BASED_UNIT('DEGREE',#155)NAMED_UNIT(*)PLANE_ANGLE_UNIT());
#158=UNCERTAINTY_MEASURE_WITH_UNIT(LENGTH_MEASURE(4.542944951573E-3),#152,
'closure',
'Maximum model space distance between geometric entities at asserted connectivities');
#159=(GEOMETRIC_REPRESENTATION_CONTEXT(3)GLOBAL_UNCERTAINTY_ASSIGNED_CONTEXT((
#158))GLOBAL_UNIT_ASSIGNED_CONTEXT((#152,#156,#157))REPRESENTATION_CONTEXT
('ID1','3'));
#160=CARTESIAN_POINT('',(0.E0,0.E0,0.E0));
#161=DIRECTION('',(0.E0,0.E0,1.E0));
#162=DIRECTION('',(1.E0,0.E0,0.E0));
#165=APPLICATION_CONTEXT(
'CONFIGURATION CONTROLLED 3D DESIGNS OF MECHANICAL PARTS AND ASSEMBLIES');
#166=APPLICATION_PROTOCOL_DEFINITION('international standard',
'ccd_cla_gvp_ast_asd',1995,#165);
#167=DESIGN_CONTEXT('',#165,'design');
#168=MECHANICAL_CONTEXT('',#165,'mechanical');
#169=PRODUCT('4027139901','4027139901','NOT SPECIFIED',(#168));
#170=PRODUCT_DEFINITION_FORMATION_WITH_SPECIFIED_SOURCE('1','LAST_VERSION',#169,
.MADE.);
#178=DERIVED_UNIT_ELEMENT(#177,2.E0);
#179=DERIVED_UNIT((#178));
#180=MEASURE_REPRESENTATION_ITEM('surface area measure',AREA_MEASURE(
1.105395692922E3),#179);
#185=DERIVED_UNIT_ELEMENT(#184,3.E0);
#186=DERIVED_UNIT((#185));
#187=MEASURE_REPRESENTATION_ITEM('volume measure',VOLUME_MEASURE(
1.105395692922E3),#186);
#191=CARTESIAN_POINT('centre point',(0.E0,0.E0,0.E0));
#196=DERIVED_UNIT_ELEMENT(#195,2.E0);
#197=DERIVED_UNIT((#196));
#198=MEASURE_REPRESENTATION_ITEM('surface area measure',AREA_MEASURE(
1.105395692922E3),#197);
#203=DERIVED_UNIT_ELEMENT(#202,3.E0);
#204=DERIVED_UNIT((#203));
#205=MEASURE_REPRESENTATION_ITEM('volume measure',VOLUME_MEASURE(
1.105395692922E3),#204);
#209=CARTESIAN_POINT('centre point',(0.E0,0.E0,0.E0));
#219=CARTESIAN_POINT('centre point',(0.E0,0.E0,0.E0));
#223=CARTESIAN_POINT('',(0.E0,0.E0,0.E0));
#224=DIRECTION('',(0.E0,0.E0,1.E0));
#225=DIRECTION('',(1.E0,0.E0,0.E0));
#226=AXIS2_PLACEMENT_3D('',#223,#224,#225);
#227=ITEM_DEFINED_TRANSFORMATION('','',#163,#226);
#228=(REPRESENTATION_RELATIONSHIP('','',#164,#216)REPRESENTATION_RELATIONSHIP_WITH_TRANSFORMATION(#227)SHAPE_REPRESENTATION_RELATIONSHIP());
#229=CONTEXT_DEPENDENT_SHAPE_REPRESENTATION(#228,#218);
#230=DIRECTION('',(-9.396926207859E-1,0.E0,3.420201433257E-1));
#231=VECTOR('',#230,1.010968883852E0);
#232=CARTESIAN_POINT('',(-1.12E1,0.E0,-1.25E0));
#233=LINE('',#232,#231);
#234=CARTESIAN_POINT('',(-1.12E1,0.E0,0.E0));
#235=DIRECTION('',(-1.E0,0.E0,0.E0));
#236=DIRECTION('',(0.E0,0.E0,1.E0));
#237=AXIS2_PLACEMENT_3D('',#234,#235,#236);
#239=CARTESIAN_POINT('',(-1.063974244453E1,0.E0,0.E0));
#240=DIRECTION('',(0.E0,0.E0,1.E0));
#241=DIRECTION('',(-1.E0,0.E0,0.E0));
#242=AXIS2_PLACEMENT_3D('',#239,#240,#241);
#244=CARTESIAN_POINT('',(-1.215E1,0.E0,0.E0));
#245=DIRECTION('',(-1.E0,0.E0,0.E0));
#246=DIRECTION('',(0.E0,0.E0,1.E0));
#247=AXIS2_PLACEMENT_3D('',#244,#245,#246);
#249=CARTESIAN_POINT('',(-1.215E1,0.E0,0.E0));
#250=DIRECTION('',(-1.E0,0.E0,0.E0));
#251=DIRECTION('',(0.E0,-1.E0,0.E0));
#252=AXIS2_PLACEMENT_3D('',#249,#250,#251);
#254=CARTESIAN_POINT('',(-1.215E1,0.E0,0.E0));
#255=DIRECTION('',(-1.E0,0.E0,0.E0));
#256=DIRECTION('',(0.E0,1.E0,0.E0));
#257=AXIS2_PLACEMENT_3D('',#254,#255,#256);
#259=CARTESIAN_POINT('',(-1.063974244453E1,0.E0,0.E0));
#260=DIRECTION('',(0.E0,0.E0,-1.E0));
#261=DIRECTION('',(-1.E0,0.E0,0.E0));
#262=AXIS2_PLACEMENT_3D('',#259,#260,#261);
#264=CARTESIAN_POINT('',(-1.215E1,0.E0,0.E0));
#265=DIRECTION('',(-1.E0,0.E0,0.E0));
#266=DIRECTION('',(0.E0,0.E0,-1.E0));
#267=AXIS2_PLACEMENT_3D('',#264,#265,#266);
#269=DIRECTION('',(-9.396926207859E-1,0.E0,-3.420201433257E-1));
#270=VECTOR('',#269,1.010968883852E0);
#271=CARTESIAN_POINT('',(-1.12E1,0.E0,1.25E0));
#272=LINE('',#271,#270);
#273=CARTESIAN_POINT('',(-1.12E1,0.E0,0.E0));
#274=DIRECTION('',(-1.E0,0.E0,0.E0));
#275=DIRECTION('',(0.E0,0.E0,-1.E0));
#276=AXIS2_PLACEMENT_3D('',#273,#274,#275);
#278=DIRECTION('',(1.E0,0.E0,0.E0));
#279=VECTOR('',#278,2.24E1);
#280=CARTESIAN_POINT('',(-1.12E1,0.E0,-1.25E0));
#281=LINE('',#280,#279);
#282=DIRECTION('',(1.E0,0.E0,0.E0));
#283=VECTOR('',#282,2.24E1);
#284=CARTESIAN_POINT('',(-1.12E1,0.E0,1.25E0));
#285=LINE('',#284,#283);
#286=CARTESIAN_POINT('',(9.446875E0,0.E0,0.E0));
#287=DIRECTION('',(0.E0,0.E0,-1.E0));
#288=DIRECTION('',(8.142235123367E-1,5.805515239478E-1,0.E0));
#289=AXIS2_PLACEMENT_3D('',#286,#287,#288);
#291=CARTESIAN_POINT('',(1.12E1,0.E0,0.E0));
#292=DIRECTION('',(1.E0,0.E0,0.E0));
#293=DIRECTION('',(0.E0,0.E0,-1.E0));
#294=AXIS2_PLACEMENT_3D('',#291,#292,#293);
#296=CARTESIAN_POINT('',(1.12E1,0.E0,0.E0));
#297=DIRECTION('',(1.E0,0.E0,0.E0));
#298=DIRECTION('',(0.E0,-1.E0,0.E0));
#299=AXIS2_PLACEMENT_3D('',#296,#297,#298);
#301=CARTESIAN_POINT('',(9.446875E0,0.E0,0.E0));
#302=DIRECTION('',(0.E0,0.E0,1.E0));
#303=DIRECTION('',(8.142235123367E-1,-5.805515239478E-1,0.E0));
#304=AXIS2_PLACEMENT_3D('',#301,#302,#303);
#306=CARTESIAN_POINT('',(1.12E1,0.E0,0.E0));
#307=DIRECTION('',(1.E0,0.E0,0.E0));
#308=DIRECTION('',(0.E0,0.E0,1.E0));
#309=AXIS2_PLACEMENT_3D('',#306,#307,#308);
#311=CARTESIAN_POINT('',(1.12E1,0.E0,0.E0));
#312=DIRECTION('',(1.E0,0.E0,0.E0));
#313=DIRECTION('',(0.E0,1.E0,0.E0));
#314=AXIS2_PLACEMENT_3D('',#311,#312,#313);
#316=CARTESIAN_POINT('',(1.12E1,1.25E0,0.E0));
#317=CARTESIAN_POINT('',(1.16E1,0.E0,0.E0));
#318=VERTEX_POINT('',#316);
#319=VERTEX_POINT('',#317);
#320=CARTESIAN_POINT('',(1.12E1,0.E0,1.25E0));
#321=VERTEX_POINT('',#320);
#322=CARTESIAN_POINT('',(-1.12E1,0.E0,1.25E0));
#323=CARTESIAN_POINT('',(-1.215E1,0.E0,9.042282774471E-1));
#324=VERTEX_POINT('',#322);
#325=VERTEX_POINT('',#323);
#326=CARTESIAN_POINT('',(-1.12E1,0.E0,-1.25E0));
#327=CARTESIAN_POINT('',(1.12E1,0.E0,-1.25E0));
#328=VERTEX_POINT('',#326);
#329=VERTEX_POINT('',#327);
#330=CARTESIAN_POINT('',(-1.215E1,9.042282774471E-1,0.E0));
#331=VERTEX_POINT('',#330);
#332=CARTESIAN_POINT('',(-1.215E1,0.E0,-9.042282774471E-1));
#333=VERTEX_POINT('',#332);
#334=CARTESIAN_POINT('',(-1.215E1,-9.042282774471E-1,0.E0));
#335=VERTEX_POINT('',#334);
#336=CARTESIAN_POINT('',(-1.24E1,0.E0,0.E0));
#337=VERTEX_POINT('',#336);
#338=CARTESIAN_POINT('',(1.12E1,-1.25E0,0.E0));
#339=VERTEX_POINT('',#338);
#340=CARTESIAN_POINT('',(-1.1675E1,0.E0,0.E0));
#341=DIRECTION('',(1.E0,0.E0,0.E0));
#342=DIRECTION('',(0.E0,0.E0,-1.E0));
#343=AXIS2_PLACEMENT_3D('',#340,#341,#342);
#344=CONICAL_SURFACE('',#343,1.077114138724E0,2.E1);
#346=ORIENTED_EDGE('',*,*,#345,.T.);
#348=ORIENTED_EDGE('',*,*,#347,.T.);
#350=ORIENTED_EDGE('',*,*,#349,.F.);
#352=ORIENTED_EDGE('',*,*,#351,.F.);
#354=ORIENTED_EDGE('',*,*,#353,.T.);
#355=EDGE_LOOP('',(#346,#348,#350,#352,#354));
#356=FACE_OUTER_BOUND('',#355,.F.);
#357=ADVANCED_FACE('',(#356),#344,.T.);
#358=CARTESIAN_POINT('',(-1.063974244453E1,0.E0,0.E0));
#359=DIRECTION('',(0.E0,0.E0,-1.E0));
#360=DIRECTION('',(0.E0,1.E0,0.E0));
#361=AXIS2_PLACEMENT_3D('',#358,#359,#360);
#362=SPHERICAL_SURFACE('',#361,1.760257555470E0);
#364=ORIENTED_EDGE('',*,*,#363,.F.);
#366=ORIENTED_EDGE('',*,*,#365,.T.);
#367=ORIENTED_EDGE('',*,*,#345,.F.);
#369=ORIENTED_EDGE('',*,*,#368,.F.);
#370=EDGE_LOOP('',(#364,#366,#367,#369));
#371=FACE_OUTER_BOUND('',#370,.F.);
#372=ADVANCED_FACE('',(#371),#362,.T.);
#373=CARTESIAN_POINT('',(-1.063974244453E1,0.E0,0.E0));
#374=DIRECTION('',(0.E0,0.E0,-1.E0));
#375=DIRECTION('',(0.E0,1.E0,0.E0));
#376=AXIS2_PLACEMENT_3D('',#373,#374,#375);
#377=SPHERICAL_SURFACE('',#376,1.760257555470E0);
#378=ORIENTED_EDGE('',*,*,#347,.F.);
#379=ORIENTED_EDGE('',*,*,#365,.F.);
#380=ORIENTED_EDGE('',*,*,#363,.T.);
#382=ORIENTED_EDGE('',*,*,#381,.F.);
#383=EDGE_LOOP('',(#378,#379,#380,#382));
#384=FACE_OUTER_BOUND('',#383,.F.);
#385=ADVANCED_FACE('',(#384),#377,.T.);
#386=CARTESIAN_POINT('',(-1.1675E1,0.E0,0.E0));
#387=DIRECTION('',(1.E0,0.E0,0.E0));
#388=DIRECTION('',(0.E0,0.E0,-1.E0));
#389=AXIS2_PLACEMENT_3D('',#386,#387,#388);
#390=CONICAL_SURFACE('',#389,1.077114138724E0,2.E1);
#391=ORIENTED_EDGE('',*,*,#353,.F.);
#393=ORIENTED_EDGE('',*,*,#392,.F.);
#394=ORIENTED_EDGE('',*,*,#349,.T.);
#395=ORIENTED_EDGE('',*,*,#381,.T.);
#396=ORIENTED_EDGE('',*,*,#368,.T.);
#397=EDGE_LOOP('',(#391,#393,#394,#395,#396));
#398=FACE_OUTER_BOUND('',#397,.F.);
#399=ADVANCED_FACE('',(#398),#390,.T.);
#400=CARTESIAN_POINT('',(-6.985764821411E0,0.E0,0.E0));
#401=DIRECTION('',(-1.E0,0.E0,0.E0));
#402=DIRECTION('',(0.E0,0.E0,1.E0));
#403=AXIS2_PLACEMENT_3D('',#400,#401,#402);
#404=CYLINDRICAL_SURFACE('',#403,1.25E0);
#406=ORIENTED_EDGE('',*,*,#405,.F.);
#407=ORIENTED_EDGE('',*,*,#392,.T.);
#409=ORIENTED_EDGE('',*,*,#408,.T.);
#411=ORIENTED_EDGE('',*,*,#410,.T.);
#413=ORIENTED_EDGE('',*,*,#412,.T.);
#414=EDGE_LOOP('',(#406,#407,#409,#411,#413));
#415=FACE_OUTER_BOUND('',#414,.F.);
#416=ADVANCED_FACE('',(#415),#404,.T.);
#417=CARTESIAN_POINT('',(-6.985764821411E0,0.E0,0.E0));
#418=DIRECTION('',(-1.E0,0.E0,0.E0));
#419=DIRECTION('',(0.E0,0.E0,1.E0));
#420=AXIS2_PLACEMENT_3D('',#417,#418,#419);
#421=CYLINDRICAL_SURFACE('',#420,1.25E0);
#423=ORIENTED_EDGE('',*,*,#422,.T.);
#425=ORIENTED_EDGE('',*,*,#424,.T.);
#426=ORIENTED_EDGE('',*,*,#408,.F.);
#427=ORIENTED_EDGE('',*,*,#351,.T.);
#428=ORIENTED_EDGE('',*,*,#405,.T.);
#429=EDGE_LOOP('',(#423,#425,#426,#427,#428));
#430=FACE_OUTER_BOUND('',#429,.F.);
#431=ADVANCED_FACE('',(#430),#421,.T.);
#432=CARTESIAN_POINT('',(9.446875E0,0.E0,0.E0));
#433=DIRECTION('',(0.E0,0.E0,1.E0));
#434=DIRECTION('',(0.E0,-1.E0,0.E0));
#435=AXIS2_PLACEMENT_3D('',#432,#433,#434);
#436=SPHERICAL_SURFACE('',#435,2.153125E0);
#438=ORIENTED_EDGE('',*,*,#437,.F.);
#439=ORIENTED_EDGE('',*,*,#422,.F.);
#440=ORIENTED_EDGE('',*,*,#412,.F.);
#442=ORIENTED_EDGE('',*,*,#441,.T.);
#443=EDGE_LOOP('',(#438,#439,#440,#442));
#444=FACE_OUTER_BOUND('',#443,.F.);
#445=ADVANCED_FACE('',(#444),#436,.T.);
#446=CARTESIAN_POINT('',(9.446875E0,0.E0,0.E0));
#447=DIRECTION('',(0.E0,0.E0,1.E0));
#448=DIRECTION('',(0.E0,-1.E0,0.E0));
#449=AXIS2_PLACEMENT_3D('',#446,#447,#448);
#450=SPHERICAL_SURFACE('',#449,2.153125E0);
#451=ORIENTED_EDGE('',*,*,#441,.F.);
#452=ORIENTED_EDGE('',*,*,#410,.F.);
#453=ORIENTED_EDGE('',*,*,#424,.F.);
#454=ORIENTED_EDGE('',*,*,#437,.T.);
#455=EDGE_LOOP('',(#451,#452,#453,#454));
#456=FACE_OUTER_BOUND('',#455,.F.);
#457=ADVANCED_FACE('',(#456),#450,.T.);
#461=DIMENSIONAL_EXPONENTS(0.E0,0.E0,0.E0,0.E0,0.E0,0.E0,0.E0);
#463=PLANE_ANGLE_MEASURE_WITH_UNIT(PLANE_ANGLE_MEASURE(1.745329251994E-2),#462);
#464=(CONVERSION_BASED_UNIT('DEGREE',#463)NAMED_UNIT(*)PLANE_ANGLE_UNIT());
#466=UNCERTAINTY_MEASURE_WITH_UNIT(LENGTH_MEASURE(2.425804858066E-3),#460,
'closure',
'Maximum model space distance between geometric entities at asserted connectivities');
#467=(GEOMETRIC_REPRESENTATION_CONTEXT(3)GLOBAL_UNCERTAINTY_ASSIGNED_CONTEXT((
#466))GLOBAL_UNIT_ASSIGNED_CONTEXT((#460,#464,#465))REPRESENTATION_CONTEXT
('ID2','3'));
#468=CARTESIAN_POINT('',(0.E0,0.E0,0.E0));
#469=DIRECTION('',(0.E0,0.E0,1.E0));
#470=DIRECTION('',(1.E0,0.E0,0.E0));
#473=MECHANICAL_CONTEXT('',#165,'mechanical');
#474=PRODUCT('4027041781','4027041781','NOT SPECIFIED',(#473));
#475=PRODUCT_DEFINITION_FORMATION_WITH_SPECIFIED_SOURCE('1','LAST_VERSION',#474,
.MADE.);
#483=DERIVED_UNIT_ELEMENT(#482,2.E0);
#484=DERIVED_UNIT((#483));
#485=MEASURE_REPRESENTATION_ITEM('surface area measure',AREA_MEASURE(
1.909472580952E2),#484);
#490=DERIVED_UNIT_ELEMENT(#489,3.E0);
#491=DERIVED_UNIT((#490));
#492=MEASURE_REPRESENTATION_ITEM('volume measure',VOLUME_MEASURE(
1.147916164260E2),#491);
#496=CARTESIAN_POINT('centre point',(-2.884807202649E-1,-8.654088831606E-9,
-7.918319051397E-11));
#501=DERIVED_UNIT_ELEMENT(#500,2.E0);
#502=DERIVED_UNIT((#501));
#503=MEASURE_REPRESENTATION_ITEM('surface area measure',AREA_MEASURE(
1.909472580952E2),#502);
#508=DERIVED_UNIT_ELEMENT(#507,3.E0);
#509=DERIVED_UNIT((#508));
#510=MEASURE_REPRESENTATION_ITEM('volume measure',VOLUME_MEASURE(
1.147916164260E2),#509);
#514=CARTESIAN_POINT('centre point',(-2.884807202649E-1,-8.654088831606E-9,
-7.918319051397E-11));
#521=CARTESIAN_POINT('centre point',(8.654088831612E-9,-7.918319050785E-11,
-1.115192797351E-1));
#525=CARTESIAN_POINT('',(0.E0,0.E0,-4.E-1));
#526=DIRECTION('',(0.E0,1.E0,0.E0));
#527=DIRECTION('',(0.E0,0.E0,-1.E0));
#528=AXIS2_PLACEMENT_3D('',#525,#526,#527);
#529=ITEM_DEFINED_TRANSFORMATION('','',#471,#528);
#530=(REPRESENTATION_RELATIONSHIP('','',#472,#216)REPRESENTATION_RELATIONSHIP_WITH_TRANSFORMATION(#529)SHAPE_REPRESENTATION_RELATIONSHIP());
#531=CONTEXT_DEPENDENT_SHAPE_REPRESENTATION(#530,#520);
#533=DIMENSIONAL_EXPONENTS(0.E0,0.E0,0.E0,0.E0,0.E0,0.E0,0.E0);
#535=PLANE_ANGLE_MEASURE_WITH_UNIT(PLANE_ANGLE_MEASURE(1.745329251994E-2),#534);
#536=(CONVERSION_BASED_UNIT('DEGREE',#535)NAMED_UNIT(*)PLANE_ANGLE_UNIT());
#538=UNCERTAINTY_MEASURE_WITH_UNIT(LENGTH_MEASURE(4.542944951573E-3),#532,
'closure',
'Maximum model space distance between geometric entities at asserted connectivities');
#539=(GEOMETRIC_REPRESENTATION_CONTEXT(3)GLOBAL_UNCERTAINTY_ASSIGNED_CONTEXT((
#538))GLOBAL_UNIT_ASSIGNED_CONTEXT((#532,#536,#537))REPRESENTATION_CONTEXT
('ID3','3'));
#540=CARTESIAN_POINT('',(0.E0,0.E0,0.E0));
#541=DIRECTION('',(0.E0,0.E0,1.E0));
#542=DIRECTION('',(1.E0,0.E0,0.E0));
#544=DESIGN_CONTEXT('',#165,'design');
#545=MECHANICAL_CONTEXT('',#165,'mechanical');
#546=PRODUCT('4027041515_ASM','4027041515_ASM','NOT SPECIFIED',(#545));
#547=PRODUCT_DEFINITION_FORMATION_WITH_SPECIFIED_SOURCE('1','LAST_VERSION',#546,
.MADE.);
#550=DERIVED_UNIT_ELEMENT(#549,2.E0);
#551=DERIVED_UNIT((#550));
#552=MEASURE_REPRESENTATION_ITEM('surface area measure',AREA_MEASURE(
1.296342951017E3),#551);
#557=DERIVED_UNIT_ELEMENT(#556,3.E0);
#558=DERIVED_UNIT((#557));
#559=MEASURE_REPRESENTATION_ITEM('volume measure',VOLUME_MEASURE(
1.220187309348E3),#558);
#563=CARTESIAN_POINT('centre point',(8.141514772455E-10,-7.451719747102E-12,
-1.049140429947E-2));
#567=PRODUCT_CATEGORY('part','');
#568=PRODUCT_RELATED_PRODUCT_CATEGORY('assembly','',(#546));
#569=PRODUCT_CATEGORY_RELATIONSHIP('','',#567,#568);
#570=PRODUCT_CATEGORY('part','');
#571=PRODUCT_RELATED_PRODUCT_CATEGORY('detail','',(#169,#474));
#572=PRODUCT_CATEGORY_RELATIONSHIP('','',#570,#571);
#573=SECURITY_CLASSIFICATION_LEVEL('unclassified');
#574=SECURITY_CLASSIFICATION('','',#573);
#575=CC_DESIGN_SECURITY_CLASSIFICATION(#574,(#170,#475,#547,#217,#519));
#576=APPROVAL_STATUS('approved');
#577=APPROVAL(#576,'');
#578=CC_DESIGN_APPROVAL(#577,(#574,#170,#475,#547,#171,#476,#548));
#579=CALENDAR_DATE(123,10,8);
#580=COORDINATED_UNIVERSAL_TIME_OFFSET(2,0,.AHEAD.);
#581=LOCAL_TIME(12,49,4.2E1,#580);
#582=DATE_AND_TIME(#579,#581);
#583=APPROVAL_DATE_TIME(#582,#577);
#584=DATE_TIME_ROLE('creation_date');
#585=CC_DESIGN_DATE_AND_TIME_ASSIGNMENT(#582,#584,(#171,#476,#548));
#586=DATE_TIME_ROLE('classification_date');
#587=CC_DESIGN_DATE_AND_TIME_ASSIGNMENT(#582,#586,(#574));
#588=PERSON('UNSPECIFIED','UNSPECIFIED',$,$,$,$);
#589=ORGANIZATION('UNSPECIFIED','UNSPECIFIED','UNSPECIFIED');
#590=PERSON_AND_ORGANIZATION(#588,#589);
#591=APPROVAL_ROLE('approver');
#592=APPROVAL_PERSON_ORGANIZATION(#590,#577,#591);
#593=PERSON_AND_ORGANIZATION_ROLE('creator');
#594=CC_DESIGN_PERSON_AND_ORGANIZATION_ASSIGNMENT(#590,#593,(#170,#475,#547,
#171,#476,#548));
#595=PERSON_AND_ORGANIZATION_ROLE('design_supplier');
#596=CC_DESIGN_PERSON_AND_ORGANIZATION_ASSIGNMENT(#590,#595,(#170,#475,#547));
#597=PERSON_AND_ORGANIZATION_ROLE('classification_officer');
#598=CC_DESIGN_PERSON_AND_ORGANIZATION_ASSIGNMENT(#590,#597,(#574));
#599=PERSON_AND_ORGANIZATION_ROLE('design_owner');
#600=CC_DESIGN_PERSON_AND_ORGANIZATION_ASSIGNMENT(#590,#599,(#546,#169,#474));
#1=COLOUR_RGB('',0.E0,3.1E-2,3.4E-1);
#2=COLOUR_RGB('',2.8E-2,5.37E-1,3.7E-2);
#3=COLOUR_RGB('',3.E-2,9.81E-1,9.81E-1);
#4=COLOUR_RGB('',3.7E-2,5.88E-1,3.9E-2);
#5=COLOUR_RGB('',6.6E-2,4.E-3,5.93E-1);
#6=COLOUR_RGB('',6.5E-2,9.81E-1,6.2E-2);
#7=COLOUR_RGB('',7.8E-2,7.8E-2,7.8E-2);
#8=COLOUR_RGB('',7.8E-2,1.02E-1,7.8E-2);
#9=COLOUR_RGB('',1.2E-1,5.4E-1,5.3E-1);
#10=COLOUR_RGB('',1.44E-1,3.4E-2,0.E0);
#11=COLOUR_RGB('',1.5E-1,1.5E-1,1.5E-1);
#12=COLOUR_RGB('',1.69E-1,1.69E-1,1.8E-1);
#13=COLOUR_RGB('',2.E-1,2.E-1,2.E-1);
#14=COLOUR_RGB('',2.E-1,2.E-1,6.E-1);
#15=COLOUR_RGB('',2.45E-1,5.18E-1,9.48E-1);
#16=COLOUR_RGB('',3.E-1,2.9E-1,8.3E-1);
#17=COLOUR_RGB('',3.75E-1,3.8E-1,4.22E-1);
#18=COLOUR_RGB('',3.81E-1,4.41E-1,5.96E-1);
#19=COLOUR_RGB('',3.9E-1,4.4E-1,4.9E-1);
#20=COLOUR_RGB('',4.E-1,1.29E-1,0.E0);
#21=COLOUR_RGB('',4.2E-1,4.2E-1,4.2E-1);
#22=COLOUR_RGB('',5.1E-1,4.E-1,1.1E-1);
#23=COLOUR_RGB('',5.2E-1,5.3E-1,6.E-1);
#24=COLOUR_RGB('',5.71E-1,6.1E-1,6.33E-1);
#25=COLOUR_RGB('',6.35294E-1,6.86275E-1,7.4902E-1);
#26=COLOUR_RGB('',6.39E-1,6.51E-1,6.51E-1);
#27=COLOUR_RGB('',6.56E-1,3.3E-2,6.E-1);
#28=COLOUR_RGB('',6.59E-1,1.5E-2,2.9E-2);
#29=COLOUR_RGB('',7.1E-1,7.E-1,6.E-1);
#30=COLOUR_RGB('',8.E-1,7.8E-1,7.E-1);
#31=COLOUR_RGB('',8.19E-1,7.11E-1,5.6E-2);
#32=COLOUR_RGB('',8.39E-1,8.39E-1,8.51E-1);
#33=COLOUR_RGB('',8.41E-1,8.01E-1,7.15E-1);
#34=COLOUR_RGB('',8.42E-1,8.99E-1,9.33E-1);
#35=COLOUR_RGB('',8.63E-1,4.71E-1,1.57E-1);
#36=COLOUR_RGB('',9.59E-1,4.9E-2,8.78E-1);
#37=COLOUR_RGB('',9.61E-1,8.27E-1,0.E0);
#38=COLOUR_RGB('',9.882352941176E-1,7.372549019608E-1,5.176470588235E-1);
#39=COLOUR_RGB('',9.89E-1,9.04E-1,2.3E-2);
#40=COLOUR_RGB('',1.E0,0.E0,2.E-1);
#41=COLOUR_RGB('',1.E0,2.7E-2,2.7E-2);
#42=COLOUR_RGB('',1.E0,3.1E-2,3.1E-2);
#43=COLOUR_RGB('',1.E0,7.4E-1,6.E-3);
#44=COLOUR_RGB('',1.E0,1.E0,9.49E-1);
#45=DRAUGHTING_PRE_DEFINED_COLOUR('white');
#50=CIRCLE('',#49,1.2E1);
#55=CIRCLE('',#54,2.E0);
#60=CIRCLE('',#59,1.2E1);
#65=CIRCLE('',#64,2.E0);
#70=CIRCLE('',#69,2.E0);
#75=CIRCLE('',#74,1.6E1);
#80=CIRCLE('',#79,2.E0);
#85=CIRCLE('',#84,1.6E1);
#99=EDGE_CURVE('',#88,#89,#55,.T.);
#101=EDGE_CURVE('',#89,#93,#85,.T.);
#103=EDGE_CURVE('',#92,#93,#65,.T.);
#105=EDGE_CURVE('',#88,#92,#50,.T.);
#116=EDGE_CURVE('',#88,#92,#60,.T.);
#119=EDGE_CURVE('',#89,#93,#75,.T.);
#129=EDGE_CURVE('',#89,#88,#70,.T.);
#132=EDGE_CURVE('',#93,#92,#80,.T.);
#150=CLOSED_SHELL('',(#109,#123,#137,#149));
#151=MANIFOLD_SOLID_BREP('',#150);
#152=(LENGTH_UNIT()NAMED_UNIT(*)SI_UNIT(.MILLI.,.METRE.));
#154=(NAMED_UNIT(*)PLANE_ANGLE_UNIT()SI_UNIT($,.RADIAN.));
#157=(NAMED_UNIT(*)SI_UNIT($,.STERADIAN.)SOLID_ANGLE_UNIT());
#163=AXIS2_PLACEMENT_3D('',#160,#161,#162);
#164=ADVANCED_BREP_SHAPE_REPRESENTATION('',(#163,#151),#159);
#171=PRODUCT_DEFINITION('design','',#170,#167);
#172=PRODUCT_DEFINITION_SHAPE('','SHAPE FOR 4027139901.',#171);
#173=SHAPE_ASPECT('','solid data associated with 4027139901',#172,.F.);
#174=PROPERTY_DEFINITION('',
'shape for solid data with which properties are associated',#173);
#175=SHAPE_REPRESENTATION('',(#151),#159);
#176=SHAPE_DEFINITION_REPRESENTATION(#174,#175);
#177=(LENGTH_UNIT()NAMED_UNIT(*)SI_UNIT(.MILLI.,.METRE.));
#181=PROPERTY_DEFINITION('geometric validation property','area of 4027139901',
#173);
#182=REPRESENTATION('surface area',(#180),#159);
#183=PROPERTY_DEFINITION_REPRESENTATION(#181,#182);
#184=(LENGTH_UNIT()NAMED_UNIT(*)SI_UNIT(.MILLI.,.METRE.));
#188=PROPERTY_DEFINITION('geometric validation property','volume of 4027139901',
#173);
#189=REPRESENTATION('volume',(#187),#159);
#190=PROPERTY_DEFINITION_REPRESENTATION(#188,#189);
#192=PROPERTY_DEFINITION('geometric validation property',
'centroid of 4027139901',#173);
#193=REPRESENTATION('centroid',(#191),#159);
#194=PROPERTY_DEFINITION_REPRESENTATION(#192,#193);
#195=(LENGTH_UNIT()NAMED_UNIT(*)SI_UNIT(.MILLI.,.METRE.));
#199=PROPERTY_DEFINITION('geometric validation property','area of 4027139901',
#172);
#200=REPRESENTATION('surface area',(#198),#159);
#201=PROPERTY_DEFINITION_REPRESENTATION(#199,#200);
#202=(LENGTH_UNIT()NAMED_UNIT(*)SI_UNIT(.MILLI.,.METRE.));
#206=PROPERTY_DEFINITION('geometric validation property','volume of 4027139901',
#172);
#207=REPRESENTATION('volume',(#205),#159);
#208=PROPERTY_DEFINITION_REPRESENTATION(#206,#207);
#210=PROPERTY_DEFINITION('geometric validation property',
'centroid of 4027139901',#172);
#211=REPRESENTATION('centroid',(#209),#159);
#212=PROPERTY_DEFINITION_REPRESENTATION(#210,#211);
#213=SHAPE_DEFINITION_REPRESENTATION(#172,#164);
#214=SHAPE_DEFINITION_REPRESENTATION(#215,#216);
#215=PRODUCT_DEFINITION_SHAPE('','SHAPE FOR 4027041515_ASM.',#548);
#216=SHAPE_REPRESENTATION('',(#226,#528,#543),#539);
#217=NEXT_ASSEMBLY_USAGE_OCCURRENCE('99','Next assembly relationship',
'4027139901',#548,#171,$);
#218=PRODUCT_DEFINITION_SHAPE('Placement #99',
'Placement of 4027139901 with respect to 4027041515_ASM',#217);
#220=PROPERTY_DEFINITION('geometric validation property',
'centroid of 4027139901',#218);
#221=REPRESENTATION('centroid',(#219),#159);
#222=PROPERTY_DEFINITION_REPRESENTATION(#220,#221);
#238=CIRCLE('',#237,1.25E0);
#243=CIRCLE('',#242,1.760257555470E0);
#248=CIRCLE('',#247,9.042282774471E-1);
#253=CIRCLE('',#252,9.042282774471E-1);
#258=CIRCLE('',#257,9.042282774471E-1);
#263=CIRCLE('',#262,1.760257555470E0);
#268=CIRCLE('',#267,9.042282774471E-1);
#277=CIRCLE('',#276,1.25E0);
#290=CIRCLE('',#289,2.153125E0);
#295=CIRCLE('',#294,1.25E0);
#300=CIRCLE('',#299,1.25E0);
#305=CIRCLE('',#304,2.153125E0);
#310=CIRCLE('',#309,1.25E0);
#315=CIRCLE('',#314,1.25E0);
#345=EDGE_CURVE('',#325,#331,#248,.T.);
#347=EDGE_CURVE('',#331,#333,#258,.T.);
#349=EDGE_CURVE('',#328,#333,#233,.T.);
#351=EDGE_CURVE('',#324,#328,#238,.T.);
#353=EDGE_CURVE('',#324,#325,#272,.T.);
#363=EDGE_CURVE('',#337,#335,#243,.T.);
#365=EDGE_CURVE('',#337,#331,#263,.T.);
#368=EDGE_CURVE('',#335,#325,#253,.T.);
#381=EDGE_CURVE('',#333,#335,#268,.T.);
#392=EDGE_CURVE('',#328,#324,#277,.T.);
#405=EDGE_CURVE('',#328,#329,#281,.T.);
#408=EDGE_CURVE('',#324,#321,#285,.T.);
#410=EDGE_CURVE('',#321,#339,#310,.T.);
#412=EDGE_CURVE('',#339,#329,#300,.T.);
#422=EDGE_CURVE('',#329,#318,#295,.T.);
#424=EDGE_CURVE('',#318,#321,#315,.T.);
#437=EDGE_CURVE('',#318,#319,#290,.T.);
#441=EDGE_CURVE('',#339,#319,#305,.T.);
#458=CLOSED_SHELL('',(#357,#372,#385,#399,#416,#431,#445,#457));
#459=MANIFOLD_SOLID_BREP('',#458);
#460=(LENGTH_UNIT()NAMED_UNIT(*)SI_UNIT(.MILLI.,.METRE.));
#462=(NAMED_UNIT(*)PLANE_ANGLE_UNIT()SI_UNIT($,.RADIAN.));
#465=(NAMED_UNIT(*)SI_UNIT($,.STERADIAN.)SOLID_ANGLE_UNIT());
#471=AXIS2_PLACEMENT_3D('',#468,#469,#470);
#472=ADVANCED_BREP_SHAPE_REPRESENTATION('',(#471,#459),#467);
#476=PRODUCT_DEFINITION('design','',#475,#167);
#477=PRODUCT_DEFINITION_SHAPE('','SHAPE FOR 4027041781.',#476);
#478=SHAPE_ASPECT('','solid data associated with 4027041781',#477,.F.);
#479=PROPERTY_DEFINITION('',
'shape for solid data with which properties are associated',#478);
#480=SHAPE_REPRESENTATION('',(#459),#467);
#481=SHAPE_DEFINITION_REPRESENTATION(#479,#480);
#482=(LENGTH_UNIT()NAMED_UNIT(*)SI_UNIT(.MILLI.,.METRE.));
#486=PROPERTY_DEFINITION('geometric validation property','area of 4027041781',
#478);
#487=REPRESENTATION('surface area',(#485),#467);
#488=PROPERTY_DEFINITION_REPRESENTATION(#486,#487);
#489=(LENGTH_UNIT()NAMED_UNIT(*)SI_UNIT(.MILLI.,.METRE.));
#493=PROPERTY_DEFINITION('geometric validation property','volume of 4027041781',
#478);
#494=REPRESENTATION('volume',(#492),#467);
#495=PROPERTY_DEFINITION_REPRESENTATION(#493,#494);
#497=PROPERTY_DEFINITION('geometric validation property',
'centroid of 4027041781',#478);
#498=REPRESENTATION('centroid',(#496),#467);
#499=PROPERTY_DEFINITION_REPRESENTATION(#497,#498);
#500=(LENGTH_UNIT()NAMED_UNIT(*)SI_UNIT(.MILLI.,.METRE.));
#504=PROPERTY_DEFINITION('geometric validation property','area of 4027041781',
#477);
#505=REPRESENTATION('surface area',(#503),#467);
#506=PROPERTY_DEFINITION_REPRESENTATION(#504,#505);
#507=(LENGTH_UNIT()NAMED_UNIT(*)SI_UNIT(.MILLI.,.METRE.));
#511=PROPERTY_DEFINITION('geometric validation property','volume of 4027041781',
#477);
#512=REPRESENTATION('volume',(#510),#467);
#513=PROPERTY_DEFINITION_REPRESENTATION(#511,#512);
#515=PROPERTY_DEFINITION('geometric validation property',
'centroid of 4027041781',#477);
#516=REPRESENTATION('centroid',(#514),#467);
#517=PROPERTY_DEFINITION_REPRESENTATION(#515,#516);
#518=SHAPE_DEFINITION_REPRESENTATION(#477,#472);
#519=NEXT_ASSEMBLY_USAGE_OCCURRENCE('100','Next assembly relationship',
'4027041781',#548,#476,$);
#520=PRODUCT_DEFINITION_SHAPE('Placement #100',
'Placement of 4027041781 with respect to 4027041515_ASM',#519);
#522=PROPERTY_DEFINITION('geometric validation property',
'centroid of 4027041781',#520);
#523=REPRESENTATION('centroid',(#521),#467);
#524=PROPERTY_DEFINITION_REPRESENTATION(#522,#523);
#532=(LENGTH_UNIT()NAMED_UNIT(*)SI_UNIT(.MILLI.,.METRE.));
#534=(NAMED_UNIT(*)PLANE_ANGLE_UNIT()SI_UNIT($,.RADIAN.));
#537=(NAMED_UNIT(*)SI_UNIT($,.STERADIAN.)SOLID_ANGLE_UNIT());
#543=AXIS2_PLACEMENT_3D('',#540,#541,#542);
#548=PRODUCT_DEFINITION('design','',#547,#544);
#549=(LENGTH_UNIT()NAMED_UNIT(*)SI_UNIT(.MILLI.,.METRE.));
#553=PROPERTY_DEFINITION('geometric validation property',
'area of 4027041515_ASM',#215);
#554=REPRESENTATION('surface area',(#552),#539);
#555=PROPERTY_DEFINITION_REPRESENTATION(#553,#554);
#556=(LENGTH_UNIT()NAMED_UNIT(*)SI_UNIT(.MILLI.,.METRE.));
#560=PROPERTY_DEFINITION('geometric validation property',
'volume of 4027041515_ASM',#215);
#561=REPRESENTATION('volume',(#559),#539);
#562=PROPERTY_DEFINITION_REPRESENTATION(#560,#561);
#564=PROPERTY_DEFINITION('geometric validation property',
'centroid of 4027041515_ASM',#215);
#565=REPRESENTATION('centroid',(#563),#539);
#566=PROPERTY_DEFINITION_REPRESENTATION(#564,#565);
ENDSEC;
END-ISO-10303-21;
